Tokio Hotel

Forum sur le Groupe Tokio Hotel
 
AccueilFAQS'enregistrerConnexion

Partagez | 
 

 [tablature Basse] übers Ende der welt

Voir le sujet précédent Voir le sujet suivant Aller en bas 
AuteurMessage
Stef [BG]
Addict-TH
avatar

Nombre de messages : 2138
Age : 24
Localisation : into the blue
Chanson préférée : Schwarz
Date d'inscription : 31/10/2007

MessageSujet: [tablature Basse] übers Ende der welt   Sam 10 Nov - 18:57

[BASSE]



Intro & verse :
|-----------------------------------------------------------------------------------------------|
|-----------------------------------------------------------------------------------------------|
|---------------4-4-4-4-4-4-4-4-4--------------4-4-4-6-6-6-------3-3-3-3-3-3-3--4-4-4-4-4-4-4---|
|-6-6-6-3-3-3-3-4-4-4-4-4-4-4-4-4--6-6-6-3-3-3-4-4-4-6-6-6--(X5)-3-3-3-3-3-3-3--1-1-1-1-1-1-1---|
|---------------2-2-2-2-2-2-2-2-2--------------2-2-2-4-4-4-------1-1-1-1-1-1-1--2-2-2-2-2-2-2---|
|-----------------------------------------------------------------------------------------------|

Pré-chorus :
|-------------------------------------|
|-------------------------------------|
|-------------------------------------|
|-1-1-1---3-3-3-3---------------------|
|-2-2-2---4-4-4-4---4-4-4-4-4-4-4-4---|
|-------------------6-6-6-6-6-6-6-6---|

Chorus :
|----------------------------------------------------------------------------------------------------|
|----------------------------------------------------------------------------------------------------|
|-6-6-6--8-8-8-x--4-4-4-x-------------6-6-6--8-8-8-x--4-4-4-x--6-6-6-6--8-8-8-8-8-8/4-4-4-4-4-4-6----|
|-6-6-6--8-8-8-x--4-4-4-x--4-4-4-4-x--6-6-6--8-8-8-x--4-4-4-x--6-6-6-6--8-8-8-8-8-8/4-4-4-4-4-4-6----|
|-4-4-4--6-6-6-x--2-2-2-x--4-4-4-4-x--4-4-4--6-6-6-x--2-2-2-x--4-4-4-4--6-6-6-6-6-6/2-2-2-2-2-2-4----|
|--------------------------2-2-2-2-x-----------------------------------------------------------------|

|-------------------------------------------------------------------------------------------------|
|-------------------------------------------------------------------------------------------------|
|-8-8-8-8-8-8/4-4-4-4-4-4---6-6-6-6-6-6-6-3-3-3-3-3-3-3-------------------------------------------|
|-8-8-8-8-8-8/4-4-4-4-4-4---6-6-6-6-6-6-6-3-3-3-3-3-3-3-------------6-6-6-3-3-3-3-----------------|
|-6-6-6-6-6-6/2-2-2-2-2-2---4-4-4-4-4-4-4-1-1-1-1-1-1-1---------------------------2-2-2-2-2-2-2-2-|
|-------------------------------------------------------------------------------------------------|

|-------------------------------|
|-------------------------------|
|-------------------------------|
|-6-6-6-3-3-3-3-----------------|
|---------------2-2-2-2-4-4-4-4-|
|-------------------------------|

"Solo" à 2m24 du clip :

|--------------------------------------|
|--------------------------------------|
|-3-3-x-4-4-x-6-6-x-3-3-3-4-4-4--------|
|-3-3-x-4-4-x-6-6-x-3-3-3-4-4-4--------|
|-1-1-x-2-2-x-4-4-x-1-1-1-2-2-2--------|
|--------------------------------------|

Fin du solo
|-----------------------------------|
|-----------------------------------|
|-4-4-4-6-6-6-6-3-3-3-3-3-3-3-3-3-3-|
|-4-4-4-6-6-6-6-3-3-3-3-3-3-3-3-3-3-|
|-2-2-2-4-4-4-4-1-1-1-1-1-1-1-1-1-1-|
|-----------------------------------|

Fin
|-------------|
|-------------|
|---------4~--|
|-3-3-4-4-4~--|
|---------2~--|
|-------------|


Intro 1x
Verse 2x
Pré-chorus 2x
Refrain 1x
Verse 2x
Pré-chorus 2x
Refrain 1x
Solo 'X'x
Fin du solo 2x
Refrain x2
Verse x3

_________________
Seas cry out butchering this tragic soul without hope
their frailty is broken and now fades into the blue
...
Revenir en haut Aller en bas
Mnks
Admin
avatar

Nombre de messages : 1435
Age : 27
Localisation : Sous la Couette de Bill!
Date d'inscription : 30/10/2007

MessageSujet: Re: [tablature Basse] übers Ende der welt   Sam 10 Nov - 19:33

Merci! =D

_________________
Revenir en haut Aller en bas
http://tokiohotel-4ever.forumpro.fr
 
[tablature Basse] übers Ende der welt
Voir le sujet précédent Voir le sujet suivant Revenir en haut 
Page 1 sur 1
 Sujets similaires
-
» [News] Single Übers Ende der Welt
» [Clip] Übers Ende der Welt
» Comment trouvez-vous le clip Übers Ende der Welt ?
» Ben harper feat Vanessa da Mata
» Présentations

Permission de ce forum:Vous ne pouvez pas répondre aux sujets dans ce forum
Tokio Hotel :: Autre :: Tablatures/partitions-
Sauter vers: