Tokio Hotel

Forum sur le Groupe Tokio Hotel
 
AccueilFAQS'enregistrerConnexion

Partagez | 
 

 [tablature] Frei im freien fall

Voir le sujet précédent Voir le sujet suivant Aller en bas 
AuteurMessage
Stef [BG]
Addict-TH
avatar

Nombre de messages : 2138
Age : 24
Localisation : into the blue
Chanson préférée : Schwarz
Date d'inscription : 31/10/2007

MessageSujet: [tablature] Frei im freien fall   Sam 10 Nov - 18:45


|--------------------------------------------|
|--------------------------------------------|
|--------------------------------------------|
|-4--4-11-11-11-6-6-6-6-6-6-6-6--------------|
|-4--4-11-11-11-6-6-6-6-6-6-6-6--------------|
|-2--2-9--9--9--4-4-4-4-4-4-4-4--------------|

|--------------------------------------------|
|--------------------------------------------|
|--------------------------------------------|
|-4--4-11-11-11-6----------------------------|
|-4--4-11-11-11-6----------------------------|
|-2--2-9--9--9--4----------------------------|

couplet

|-x-4-x-4-x-2-x-2-x-11-x-11-|
|-x-4-x-4-x-2-x-2-x-11-x-11-|
|-x-6-x-6-x-4-x-4-x-9-x---9-| x2
|-x-6-x-6-x-4-x-4-x-9-x---9-|
|-x-4-x-4-x-2-x-2-x-11-x-11-|

_________________
Seas cry out butchering this tragic soul without hope
their frailty is broken and now fades into the blue
...
Revenir en haut Aller en bas
Mnks
Admin
avatar

Nombre de messages : 1435
Age : 27
Localisation : Sous la Couette de Bill!
Date d'inscription : 30/10/2007

MessageSujet: Re: [tablature] Frei im freien fall   Sam 10 Nov - 19:34

Merci!

_________________

http://mnks.skyblog.com






Revenir en haut Aller en bas
http://tokiohotel-4ever.forumpro.fr
 
[tablature] Frei im freien fall
Voir le sujet précédent Voir le sujet suivant Revenir en haut 
Page 1 sur 1
 Sujets similaires
-
» [Single] Der Letzte Tag
» Recueil tablature Blind Willie Johnson
» Tablature(s) Xavier Rudd
» recherche Tablature lifeline-ben harper
» Tablature Ruby - Charlie Mac Coy

Permission de ce forum:Vous ne pouvez pas répondre aux sujets dans ce forum
Tokio Hotel :: Autre :: Tablatures/partitions-
Sauter vers: